Jump to content

  • 0

Need help figuring out what chord is being played on this vid


Dudeman
 Share

Question

Can anyone help me with figuring out what is being played here at about 1:54 where the lead guitarist plays it then slides up to the start of the chorus of: 

 

e|----------------------------------|----------------------------------|

B|----------------------------------|----------------------------------|
G|----------------------------------|----------------------------------|
D|----4-------4---4---4---4---4---4-|----4---4---4---4---4---4---4---4-|
A|----4-------4---4---4---4---4---4-|----4---4---4---4---4---4---4---4-|
E|----2-------2---2---2---2---2---2-|----2---2---2---2---2---2---2---2-|
                                                     
e|--------------------------|--------------------------|
B|--------------------------|--------------------------|
G|--------------------------|--------------------------|
D|---2-----2--2--2--2--2--2-|---2--2--2--2--2--2--2--2-|
A|---2-----2--2--2--2--2--2-|---2--2--2--2--2--2--2--2-|
E|---0-----0--0--0--0--0--0-|---0--0--0--0--0--0--0--0-|
 
Thanks
Link to comment
Share on other sites

2 answers to this question

Recommended Posts

  • 0

It looks like he's just playing a power chord at either the 16th or 17th fret and then sliding down. Maybe try playing one of those along with it and see which sounds better to you. With something like that, the actual slide down is probably more important than the starting point, IMO.

The Led Zeppelin Discography thread

learning to chart > asking someone else to do it

"The only true currency in this bankrupt world is what you share with someone else when you're uncool." - Lester Bangs
 

Link to comment
Share on other sites

  • 0

It looks like he's just playing a power chord at either the 16th or 17th fret and then sliding down. Maybe try playing one of those along with it and see which sounds better to you. With something like that, the actual slide down is probably more important than the starting point, IMO.

 

I agree, if you mean just the downward sound effect thing, it doesn't make much difference where you start the slide from. You can just kinda throw your hand randomly at the fretboard there and achieve a similar sound.

 

Of course when making Rocksmith notes you have to mark the start somewhere, so for example 12 frets (octave) above what's currently being played makes logical sense and sounds nice.

 

 

(Necro post because we're working on an update to the file at the moment. :D )

Link to comment
Share on other sites

This thread is quite old. Please consider starting a new thread rather than reviving this one.

Join the conversation

You can post now and register later. If you have an account, sign in now to post with your account.

Guest
Answer this question...

×   Pasted as rich text.   Paste as plain text instead

  Only 75 emoji are allowed.

×   Your link has been automatically embedded.   Display as a link instead

×   Your previous content has been restored.   Clear editor

×   You cannot paste images directly. Upload or insert images from URL.

Loading...
 Share

×
×
  • Create New...

Important Information

By using this site, you agree to our Guidelines. We have placed cookies on your device to help make this website better. You can adjust your cookie settings, otherwise we'll assume you're okay to continue. - Privacy Policy